Animals (tablature)

MuseWiki, wiki for the band Muse
Jump to: navigation, search
Muse - Animals 
Tuning: Drop Eb ( EB A D G B E )
please use the talk page if you intend to modify the tab.  

  
E |-------|
B |-------|
G |--8~---|
D |-------|
A |-------|
Eb|-------|

E |-----------------------------------------------------|
B |--6-7-9~---7-6h7p6-----------------------------------|
G |-------------------8-6-8~----------------------------|
D |----------------------------8-9-11-9-8-9-8-6-8-------|
A |------------------------------------------------8/9--|
Eb|-----------------------------------------------------|

                   |-hold bend-|
E |-----------11-------------------------14-14------|
B |----------11--14b16-16-16-16r14-12-11------11-12-|
G |--13b15------------------------------------------|
D |-------------------------------------------------|
A |-------------------------------------------------|
Eb|-------------------------------------------------|

E |--------------------------------------------------------|
B |------------------------------(or 9)-----------9-10-11~-|
G |-------------10~------11~------13~----------------------|
D |--11~----9h11-----9h11-----9h11-----9-10-11-------------|
A |--------------------------------------------------------|
Eb|--------------------------------------------------------|

E |----------------|
B |-------------12-|
G |--15r13--11-----| 
D |----------------|
A |----------------|
Eb|----------------|

E |---------------------|
B |--11~-------9h11/15~-|
G |---------------------|
D |---------------------|
A |---------------------|
Eb|---------------------|


Solo 1 

E |---------------------------------------------------------|
B |---------------------------------------------------------|
G |-----------11-15-13-11-13-11-10h11p10---10---------------|
D |---------13---------------------------13--13-11--11------|
A |-------13--------------------------------------14--14-13-|
Eb|--12-15--------------------------------------------------|

E |------------------------------------------------------------|
B |-----------12-16-14-12-14-12-11h12p11---11------------------|
G |---------13---------------------------13--13-11-13-11-10----|
D |-------13------------------------------------------------13-|
A |--11-14-----------------------------------------------------|
Eb|------------------------------------------------------------|

E |---------------------------------------------------------|
B |---------------------------------------------------------|
G |-----------11-15-13-11-13-11-10h11p10---10---------------|
D |---------13---------------------------13--13-11--11------|
A |-------13--------------------------------------14--14-13-|
Eb|--12-15--------------------------------------------------| 

E |-------------------------------------------------------------|
B |-----------12-16-14-12-14-12-11h12p11---11-------------------|
G |---------13---------------------------13--13-11-13-11-10-11~-|
D |-------13----------------------------------------------------|
A |--11-14------------------------------------------------------|
Eb|-------------------------------------------------------------|

End Solo 1


                      |-hold bend-|        |-hold-|
E |----------------------------------------------------------------11---18-|
B |---6-7-9-7--7---7---------------------------------------------11--------|
G |-----------------10b11-11-11-11r10-8-6-6b8-8-8r6-6-4-3h4p3--------------|
D |-----------------------------------------------------------4------------|
A |------------------------------------------------------------------------|
Eb|------------------------------------------------------------------------|
Note: The 18th note at the end is actually a harmonic around the 5th fret for a half step down guitar. 
|-hold-| is hold bend. 

                   |-hold bend-|
E |-----------11---------------------------11---11----------14---14--14-----|
B |----------11--14b16-16-16-16r14-12--12---12---12--11--11---11--11----12~-|
G |--13b15------------------------------------------------------------------|
D |-------------------------------------------------------------------------|
A |-------------------------------------------------------------------------|
Eb|-------------------------------------------------------------------------|

E |--------------------------------------------------------|
B |------------------------------(or 9)-----------9-10-11~-|
G |-------------10~------11~------13~----------------------|
D |--11~----9h11-----9h11-----9h11-----9-10-11-------------|
A |--------------------------------------------------------|
Eb|--------------------------------------------------------|

E |----------------|
B |-------------12-|
G |--15r13--11-----| 
D |----------------|
A |----------------|
Eb|----------------|

E |---------------------|
B |--11~-------9h11/15~-|
G |---------------------|
D |---------------------|
A |---------------------|
Eb|---------------------|


Solo 2
   |---------p.m.---------| 
E |------------------------|
B |------------------------|
G |------------------------| x4
D |------------------------|
A |------------------------|
Eb|--0-0-0-12-0-0-10-0-8\--|

E |-----------------------------------------------------------|
B |-----------------------------------------------------------|
G |-----10-11-10-11-13-11-10-11-10----10-11-10-11-13-11-10-11-|
D |--13----------------------------13-------------------------|
A |-----------------------------------------------------------|
Eb|-----------------------------------------------------------| 

E |--------------------------------------------------------------------|
B |-----11-12-11-12-14-12-11-12-11-------11----11-12-11----11----------|
G |--13----------------------------11--13----13----------13---13-11-10-|
D |--------------------------------------------------------------------|
A |--------------------------------------------------------------------|
Eb|--------------------------------------------------------------------|

E |-----------------------------------------------------------|
B |-----------------------------------------------------------|
G |-----10-11-10-11-13-11-10-11-10----10-11-10-11b13r11-10-11-|
D |--13----------------------------13-------------------------|
A |-----------------------------------------------------------|
Eb|-----------------------------------------------------------| 

E |-------------------------------------------------------------------------|
B |-----11-12-11-12-14-12-11-12-11-------11----11-12-11----12-11------------|
G |--13----------------------------11--13----13----------13----------10--13-|
D |----------------------------------------------------------------13-------|
A |-------------------------------------------------------------------------|
Eb|-------------------------------------------------------------------------|

End Solo 2


E |---------------------------------------------------------------------------|
B |------------12----------------12------------------12------------------12---|
G |--13--13--13--13--12-12-12-12---12--11-11-11-11-11--11--10-10-10-10-10--10-|
D |---------------------------------------------------------------------------|
A |---------------------------------------------------------------------------|
Eb|---------------------------------------------------------------------------|  

E |---------------------------------------------------------------------------------|
B |----------------14------------------14------------------14------------------14---|
G |--10-10-10-10-10--10--11-11-11-11-11--11--12-12-12-12-12--12--13-13-13-13-13--13-|
D |---------------------------------------------------------------------------------|
A |---------------------------------------------------------------------------------|
Eb|---------------------------------------------------------------------------------| 

E |---------------------------------------------------------------------------------|
B |----------------19------------------18------------------16------------------16---|
G |--15-15-15-15-15--15--15-15-15-15-15--15--15-15-15-15-15--15--15-15-15-15-15--15-|
D |---------------------------------------------------------------------------------|
A |---------------------------------------------------------------------------------|
Eb|---------------------------------------------------------------------------------|

E |---------------------|
B |----------------16---|
G |--15-15-15-15-15--15-|
D |---------------------|
A |---------------------|
Eb|---------------------|
 
E |---------------------------------------------------------------------------------|
B |----------16----16-------------18----18------------16----16------------16----16--|                
G |--16-16-16----16--16---16-16-16----16--16--16-16-16----16--16----16-16----16--16-|
D |---------------------------------------------------------------------------------|
A |---------------------------------------------------------------------------------|
Eb|---------------------------------------------------------------------------------| 

E |------------------------------------------|
B |----------15----15-------------15----15---|
G |--15-15-15----15--15---15-15-15----15--15-|
D |------------------------------------------|
A |------------------------------------------|
Eb|------------------------------------------|


Climax

E |-------------------------|
B |-------------------------|
G |-------------------------| x 3
D |----------13-------------|
A |------------------16--14-|
Eb|--12-12-12--12-12---12---|

E |--------------------------|
B |--------------------------|
G |--------------------------| 
D |----------13--------------|
A |------------------16--14\-|
Eb|--12-12-12--12-12---12----| 

E |-----------------------|
B |-----------------------|
G |-----------------------| x4
D |-----------------------|
A |-----------------------|
Eb|--0--0-12-0-0-10-0-8\--| 

E |----------------------------|
B |--11------------------------|
G |--11------------------------|
D |--11------------------------|
A |----------------------------|
Eb|-----0-12-0-0-10-0-8\-------|

E |-----------------------|
B |-----------------------|
G |-----------------------| x3
D |-----------------------|
A |-----------------------|
Eb|--0--0-12-0-0-10-0-8\--|


Outro, (tremolo pick and) palm mute the open notes. 

E |--------------------------------------|
B |--------------------------------------|
G |--------------------------------------| x2
D |-----------------6--------------------|	
A |--6-----8----9-------6-----5--4-3--2--|
Eb|--0-0-0--0-0---0--0---0-0---0----0--0-|

E |--------------------------------------|                 
B |--------------------------------------|
G |--------------------------------------| 
D |-----------------6--------------------|	
A |--6-----8----9-------6-----5--4-3--2/-|
Eb|--0-0-0--0-0---0--0---0-0---0----0----|            

End



Go back to tablature