Agitated (tablature)

MuseWiki, wiki for the band Muse
Jump to: navigation, search

Tab Edited and Corrected by Adam

Muse Tab
Name Agitated
Length 02:23
Tuning DADGBE (Drop-D)
Tempo 166bpm
Timing 4/4 (5/4 Outro)

GUITAR TAB

INTRO:

e|-----------------|-----------------|-----------------|-----------------|
B|-6-6-------------|-6-6-------------|-6-6-------------|-6-6-------------|
G|-5-5-------------|-5-5-------------|-5-5-------------|-5-5-------------|
D|-4-4-3-3-3-3-3-3-|-4-4-3-3-3-3-3-3-|-4-4-3-3-3-3-3-3-|-4-4-3-3-3-3-3-3-|
A|-5-5-3-3-3-3-3-3-|-5-5-3-3-3-3-3-3-|-5-5-3-3-3-3-3-3-|-5-5-3-3-3-3-3-3-|
D|-0-0-3-3-3-3-3-3-|-0-0-3-3-3-3-3-3-|-0-0-3-3-3-3-3-3-|-0-0-3-3-3-3-3-3-|
       * * * * * *       * * * * * *       * * * * * *       * * * * * *

* = harmonics. they should be played between the third and fourth frets.

e|-----------------|-----------------|-----------------|-----------------|
B|-6-6-------------|-6-6-------------|-6-6-------------|-6-6-------------|
G|-5-5-------------|-5-5-------------|-5-5-------------|-5-5-------------|
D|-4-4-------------|-4-4-------------|-4-4-------------|-4-4-------------|
A|-5-5-------------|-5-5-------------|-5-5-------------|-5 5-------------|
D|-0-0-4-5-6-7-7-0-|-0-0-4-5-6-7-7-0-|-0-0-4-5-6-7-7-0-|-0-0-4-5-6-7-7-0-|

e|-----------------|-----------------|-----------------|-----------------|
B|-6-6-------------|-6-6-------------|-6-6-------------|-6-6-------------|
G|-5-5-------------|-5-5-------------|-5-5-------------|-5-5-------------|
D|-4-4-------------|-4-4-------------|-4-4-------------|-4-4-------------|
A|-5-5-------------|-5-5-------------|-5-5-------------|-5 5-------------|
D|-0-0-4-5-6-7-7-0-|-0-0-4-5-6-7-7-0-|-0-0-4-5-6-7-7-0-|-0-0-4-5-6-7-7-0-|

e|-----------------|-----------------|-----------------|-----------------|
B|-6-6-------------|-6-6-------------|-6-6-------------|-6-6-------------|
G|-5-5-------------|-5-5-------------|-5-5-------------|-5-5-------------|
D|-4-4-------------|-4-4-------------|-4-4-------------|-4-4-------------|
A|-5-5-------------|-5-5-------------|-5-5-------------|-5 5-------------|
D|-0-0-4-5-6-7-7-0-|-0-0-4-5-6-7-7-0-|-0-0-4-5-6-7-7-0-|-0-0-4-5-6-7-7-0-|

VERSE:

e|-----------------|-----------------|-----------------|-----------------|
B|-6-6-------------|-6-6-------------|-6-6-------------|-6-6-------------|
G|-5-5-------------|-5-5-------------|-5-5-------------|-5-5-------------|
D|-4-4-3-3-3-3-3-3-|-4-4-3-3-3-3-3-3-|-4-4-3-3-3-3-3-3-|-4-4-3-3-3-3-3-3-|
A|-5-5-3-3-3-3-3-3-|-5-5-3-3-3-3-3-3-|-5-5-3-3-3-3-3-3-|-5-5-3-3-3-3-3-3-|
D|-0-0-3-3-3-3-3-3-|-0-0-3-3-3-3-3-3-|-0-0-3-3-3-3-3-3-|-0-0-3-3-3-3-3-3-|
       * * * * * *       * * * * * *       * * * * * *       * * * * * *

e|-----------------|-----------------|-----------------|-----------------|
B|-6-6-------------|-6-6-------------|-6-6-------------|-6-6-------------|
G|-5-5-------------|-5-5-------------|-5-5-------------|-5-5-------------|
D|-4-4-------------|-4-4-------------|-4-4-------------|-4-4-------------|
A|-5-5-------------|-5-5-------------|-5-5-------------|-5 5-------------|
D|-0-0-4-5-6-7-7-0-|-0-0-4-5-6-7-7-0-|-0-0-4-5-6-7-7-0-|-0-0-4-5-6-7-7-0-|

e|-----------------|-----------------|-----------------|-----------------|
B|-6-6-------------|-6-6-------------|-6-6-------------|-6-6-------------|
G|-5-5-------------|-5-5-------------|-5-5-------------|-5-5-------------|
D|-4-4-------------|-4-4-------------|-4-4-------------|-4-4-------------|
A|-5-5-------------|-5-5-------------|-5-5-------------|-5 5-------------|
D|-0-0-5-6-7-7-7-7-|-0-0-5-6-7-7-7-7-|-0-0-5-6-7-7-7-7-|-0-0-5-6-7-7-7-7-|

CHORUS:
  let ring throughout  
e|-----------------|-----------------|-----------------|-----------------|
B|-----------------|-----------------|-----------------|-----------------|
G|-2---------------|-2---------------|-2---------------|-2---------------|
D|-0---------------|-0---------------|-0---------------|-0---------------|
A|-0---------------|-4---------------|-x---------------|-x---------------|
D|-0---------------|-----------------|-3---------------|-3---------------|

Repeat Intro

Repeat Verse

Repeat Chorus

BREAK:

e|-----------------|-----------------|-----------------|-----------------|
B|-6-x-6-x-6-x-6-x-|-6-x-6-x-6-x-6-x-|-6-x-6-x-6-x-6-x-|-6-x-6-x-6-x-6-x-|
G|-5-x-5-x-5-x-5-x-|-5-x-5-x-5-x-5-x-|-5-x-5-x-5-x-5-x-|-5-x-5-x-5-x-5-x-|
D|-4-x-4-x-4-x-4-x-|-4-x-4-x-4-x-4-x-|-4-x-4-x-4-x-4-x-|-4-x-4-x-4-x-4-x-|
A|-5-x-5-x-5-x-5-x-|-5-x-5-x-5-x-5-x-|-5-x-5-x-5-x-5-x-|-5-x-5-x-5-x-5-x-|
D|-0-0-0-0-0-0-0-0-|-0-0-0-0-0-0-0-0-|-0-0-0-0-0-0-0-0-|-0-0-0-0-0-0-0-0-|

e|-----------------|-----------------|-----------------|-----------------|
B|-6-x-6-x-6-x-6-x-|-6-x-6-x-6-x-6-x-|-6-x-6-x-6-x-6-x-|-6-x-6-x-6-x-6-x-|
G|-5-x-5-x-5-x-5-x-|-5-x-5-x-5-x-5-x-|-5-x-5-x-5-x-5-x-|-5-x-5-x-5-x-5-x-|
D|-4-x-4-x-4-x-4-x-|-4-x-4-x-4-x-4-x-|-4-x-4-x-4-x-4-x-|-4-x-4-x-4-x-4-x-|
A|-5-x-5-x-5-x-5-x-|-5-x-5-x-5-x-5-x-|-5-x-5-x-5-x-5-x-|-5-x-5-x-5-x-5-x-|
D|-0-0-0-0-0-0-0-0-|-0-0-0-0-0-0-0-0-|-0-0-0-0-0-0-0-0-|-0-0-0-0-0-0-0-0-|

OUTRO: 5/4

e|---------------------|---------------------|---------------------|---------------------|
B|-6-------------------|-6-------------------|-6-------------------|-6-------------------|
G|-5-------------------|-5-------------------|-5-------------------|-5-------------------|
D|-4-------------------|-4-------------------|-4-------------------|-4-------------------|
A|-5-------------------|-5-------------------|-5-------------------|-5-------------------|
D|---0-4-0-5-0-6-0-7-0-|---0-4-0-5-0-6-0-7-0-|---0-4-0-5-0-6-0-7-0-|---0-4-0-5-0-6-0-7-0-|

e|---------------------|---------------------|---------------------|---------------------|
B|-6-------------------|-6-------------------|-6-------------------|-6-------------------|
G|-5-------------------|-5-------------------|-5-------------------|-5-------------------|
D|-4-------------------|-4-------------------|-4-------------------|-4-------------------|
A|-5-------------------|-5-------------------|-5-------------------|-5-------------------|
D|---0-4-0-5-0-6-0-7-0-|---0-4-0-5-0-6-0-7-0-|---0-4-0-5-0-6-0-7-0-|---0-4-0-5-0-6-0-7-0-|

e|---------------------|---------------------|---------------------|---------------------|
B|-6-------------------|-6-------------------|-6-------------------|-6-------------------|
G|-5-------------------|-5-------------------|-5-------------------|-5-------------------|
D|-4-------------------|-4-------------------|-4-------------------|-4-------------------|
A|-5-------------------|-5-------------------|-5-------------------|-5-------------------|
D|---0-4-0-5-0-6-0-7-0-|---0-4-0-5-0-6-0-7-0-|---0-4-0-5-0-6-0-7-0-|---0-4-0-5-0-6-0-7-0-||

End on:

e|---|
B|---|
G|-6-|
D|-5-|
A|-4-|
D|-0-|

BASS TAB

Album: Hullabaloo (2003)
Tuning: D-A-D-G
Tabfixed and submitted by: Sebastian Skarpaas
PS: This is the live version! But as most Muse songs, those versions are the best;p

Pre-chorus:
G|--------------------------------------------------------------|
D|--------------------------------------------------------------|
A|--5-5------------5-5------------5-5------------5-5------------|
D|--------------------------------------------------------------|

G|--------------------------------------------------------------|
D|--------------------------------------------------------------|
A|--5-5------------5-5------------5-5------------5-5------------|
D|---------------------------------------------------6-0-5-0-12/|


Chorus:
G|-----------------------------------|
D|-----------------------------------|   x10
A|--5-5-------------5-5--------------|
D|------4-5-7-7-7-7-----4-5-7-7-7-7--|


Verse:
G|---------------------------------------------------------|
D|---------------------------------------------------------|
A|---------5------------5------------5------------5--------|
D|--5--5-5----5-4---4-4----4-3---3-3----3-2---2-2----2-3\--|

G|------------------------------------------------------|
D|------------------------------------------------------|
A|---------5------------5------------5------------5-----|
D|--5--5-5----5-4---4-4----4-3---3-3----3-2---2-2----2--|


~PRE-CHORUS~

~CHORUS~

~VERSE~

B-theme:
G|--7---7---7---7---7---7---7---7---7---7---7---7---7---7---7---7----|
D|----0---0---0---0---0---0---0---0---0---0---0---0---0---0---0---0--|
A|-------------------------------------------------------------------|
D|-------------------------------------------------------------------|

G|-------------------------------------------------------------------|
D|-------------------------------------------------------------------|
A|--5---5---5---5---5---5---5---5---5---5---5---5---5---5---5---5----|
D|----0---0---0---0---0---0---0---0---0---0---0---0---0---0---0---x--|

~2 whole breaks~

Outro:
G|--------------------------------|
D|--------------------------------|   x2
A|--------------------------------|
D|-x-------------0---0-x-6-0-5--x-|

G|--------------------------------|        G----------------------------------|
D|--------------------------------|   x7   D----------------------------------|   Let ring
A|-5-5-5-5-5-5-5------------------|        A----------------------------------|
D|---------------0---0-x-6-0-5--x-|        D-0~-------------------------------|